Secret

1:21 view from moscow tab lick

(5 posts)
  1. patfarlow
    Member

    --------------------------------------------------------------------------------------------------------------------------------
    -8-5-8-5-----------------------------------------------------------------------------------------------------------------------------
    ------------7-5-4-------5-4-----------------------------------------------------------------------------------------------------------
    --------------------5-7-------5-----------5------------------------------------------------------------------------------------------
    -----------------------------------5-7--------7--------5--------5--------5-------------------------------------------------------------
    ---------------------------------------------------8--------7-3------3-7--------8-7-8----------------------------------------------------

    its mostly legato with some descending triads
    post another lick lets keep it going!!!

  2. Matt
    Member

    http://i936.photobucket.com/albums/ad210/dial-puppy/Untitled-3.jpg

    lick from "Minor Blues" over an Ebm7 chord. i'll post the whole transcription when i'm finished

    Admin
  3. patfarlow
    Member

    nice

    Secret
  4. drainard
    Member

  5. Gesture
    Member

    E|-------------------3--8p4-----------------------------------7--12--8--7--
    B|----------------6----------6----------------------------10---------------
    G|-----------2h5----------------6--5-----------------6h9-------------------
    D|--------5---------------------------6--4--------9------------------------
    A|-----3---------------------------------------7---------------------------
    E|--1---------------------------------------5------------------------------

    Lick from Cubism from Enemies of Energy at 2:58.
    I believe the chords are: F - Db - A - C


Reply

You must log in to post.